Aug 10, 2013

PREMAGIMAJANEDO KANNADA GUITAR TABS : BANNADAGEJJE :

    PREMAGIMA                    NAMBABARADO
G : 5-7-----------------------   5-7-------
B : ----5---------------------   ----5-----
E : ------7-8-7-8---8-8-8-10--   ------7-5-

    PREMAM                         ANDRE MOSAVO
G : 5-7-------------------------   5-7-------
B : ----5-5---------------------   ----5-----
E : --------7-8-7-8---8-8-8-10--   ------7-5-


    NEERALLI KANDE
G : ----------7-5---5-7----------
B : 9-----9-5------------5-------
E : --5-7------------------8-8-8-

    KANNIGE KANALILLA
G : ----------7-5---5-7------------
B : 9-----9-5------------5---------
E : --5-7------------------5-5-5-7-


   NAGUTHA BARUVA
B :
E : 8-7-8---8-7-8---8-7-8---8-7-8-
 
    MANASU MURIVA
B :
E : 7-5-7---7-5-7---7-5-7---7-5-7-

    E PREETHINE SULLU
B : 5-----9-----    5-----9-----
E : --8-7---7-5-    --8-7---7-5-

    PREMADA ARAMANEYE
B :
E : 5-7-7-8-8-12-12-13----13-13-15-13-7-7-8-

    PREMADA GELETHANAVE
B :
E : 5-7-7-8-8-12-12-13----13-13-15-13-7-7-8-

    ELLA NATAKAVU
B : -------6-6-6-6-   ------------------
E : 7-5-8----------    -7-5-8---7-7-7-7-

 PREMAGIMA




More Info

1 comment:

  1. Sir could please share guiter tab for " iddu nan ninna premageethe chinna " from the movie premaloka Kannada

    ReplyDelete